Erreur
Erreur
Derniers sujets discutés:


Dernières news :
Derniers articles :
Dernières vidéos :
Pages: [1]
[Music] Tablatures de musiques
[Music] Tablatures de musiques
« le: Juin 12, 2004, 11:02:13 pm »
  • Rank B
  • Hors ligne Hors ligne
  • Messages: 181
Alors j'aimerais savoir si il y a quelqu'un qui aurait un site pour les tablatures ( ou partitions pour ceux qui prfrent) de guitare de sonic. Parce que je me suis mise a la guitare lectrique et j'aimerais bien les avoir. Ca serait bien a pratiquer. Parce que je suis tan de jouer les memes chansons en repeat lol. C'est ben le fun de jouer du cowboy fringants, du harmonium, offspring, etc. mais j'aimerais largir mon rpertoire. Je sais qu'il y a probablement pas beaucoups de personne qui savent jouer d'un instrument sur le forum mais j'espere qu'il y a quand meme quelque personne. Sinon je vais me sentir nowhere de savoir jouer du sax, de la clarinette, de la base, du drum, de la guitare, de la flute, etc.
Journalisée
'ennuyer c'est le fait de raliser qu'on ne fait rien.
 
 
[Music] Tablatures de musiques
« Répondre #1 le: Juin 12, 2004, 11:44:20 pm »
  • Supa Rank B




  • Hors ligne Hors ligne
  • Messages: 800


  • Journalisée
Yeaaaaaaah !!  8)

Moi a fait un an qu'je joue d'la guitare lectrique  :wink:

Sneuk sait o trouver des tablatures, il m'a refil celle d'Open Your Heart (mais moi j'prfrerai Live & Learn  :) )

J'm'y met cet t perso, que a en boucle  8)
   
[Music] Tablatures de musiques
« Répondre #2 le: Juin 13, 2004, 01:29:14 am »
  • Rank B
  • Hors ligne Hors ligne
  • Messages: 181
Pour live and learn voila ce que j'ai trouv
Symbols used:
     \ = slide down
     / = slide up
 pm... = palm mute
     v = vibrato
     h = hammer-on

Standard tuning: (low to high) EADGBe


----------
----------
----------
----------
----------
-12-12\0--

|---------------------------------------------------------|
|---------------------------------------------------------|
|------4---4/6-------4---4/6-------4---4/6----------------|
|------2---2/4-------2---2/4-------2---2/4--------------2-|
|--4-4---4------0--0---0--------------------0-----------2-|
|------------------------------0-0---0--------/5--4--3--0-| x2
  pm...  .      .  .   .       . .   .


(Weird effect on the non-palm-muted notes. Pinch harmonics one octave above
 should suffice.)
------------------------------------------------
------------------------------------------------
-----6-----4-----4---4/6vvvv--------------------
------------------------------------------------
-4-4---4-4---4-4---4----------------------------
------------------------------------------------
 pm.   . .   . .   .

Verse:
======

(Not sure about the 2's, but it sounds close.)
----------------------------------------------------------------
----------------------------------------------------------------
----------------------------------------------------------------
-----2-----2-----2-----2-----2-------2-----2-----2-----2-----2--
-4-4-2-4-4-2-4-4-2-4-4-2-4-4-2---0-0-2-0-0-2-0-0-2-0-0-2-0-0-2--
----------------------------------------------------------------
 pm.   . .   . .   . .   . .     . .   . .   . .   . .   . .

-----------------------------------------------------------------
-----------------------------------------------------------------
-----------------------------------------------------------------
-----2-----2-----2-----2-----2---4/6-6-6-6-4/6-6-6-6-----------2-
-----2-----2-----2-----2-----2---4/6-6-6-6-4/6-6-6-6-----------2-
-0-0---0-0---0-0---0-0---0-0-----2/4-4-4-4-2/4-4-4-4--5--4--3--0-
 pm.   . .   . .   . .   . .

----------------------------------------------------------------
----------------------------------------------------------------
----------------------------------------------------------2-2-1-
-----2-----2-----2-----2-----2-------2-----2-----2-----2--------
-4-4-2-4-4-2-4-4-2-4-4-2-4-4-2---0-0-2-0-0-2-0-0-2-0-0-2--------
----------------------------------------------------------------
 pm.   . .   . .   . .   . .     . .   . .   . .   . .


-----------------------------------------------------------------------
-----------------------------------------------------------------------
-----------------------------------------------------------------------
-----2-----2-----2-----2--2-2-1---4/6-6-6-6-4/6-6-6-6-6-4-5-6---6///16-
-----2-----2-----2-----2----------4/6-6-6-6-4/6-6-6-6-6-4-5-6---6///16-
-0-0---0-0---0-0---0-0------------2/4-4-4-4-2/4-4-4-4-4-2-3-4---4///14-
 pm.   . .   . .   . .


Pre-chorus:
===========

--------------------------------------------------
--------------------------------------------------
---------------------------------4----------------
-7-------------------------------4----------------
-7-------------------------------2----------------
-5------------------------------------------------

-----------------------------------------------------
-----------------------------------------------------
-6----------------4----------------------------------
-6----------------4--------------2------------2-2h4--
-4----------------2----------------------------------
-----------------------------------------------------

Et j'ai trouv celle de doomsday
Key: / = Slide up to
        \ = Slide down to

Opening:
e---------------------------------------------------------------------------------------------
B--------------------------------------------------------------------------------------------
G--------------------------------------------------------------------------------------------
D--------------------------------------------------------------------------------------------
A--0/6--5-------0/6--5----4---------4---3---2-----3---2-------1---2---1----0-----
E------------------------------------------------------------------6------------------------

e----------------------------------------------
B---------------------------------------------
G---------------------------------------------
D---------------------------------------------
A--8--------------------------------6--7----   (repeat)
E------8--9--10--11--12--13------------

e------------------------------------------------------------
B------------------------------------------------------------
G-----------------------------------------------------------
D------------------------------------------------------------
A-----6--7--8-----8------7-------6----------------------    (repeat)
E-----------------------8-------6------5------5--6--8---

e---------------------------------------------------------
B---------------------------------------------------------
G---------------------------------------------------------
D---------------------------------------------------------
A--6--5--6--5---------8-------------------------------
E----------------8----------8--9--10--11--12--13--

e------------------------------------------------------------------------------------------
B------------------------------------------------------------------------------------------
G------------------------------------------------------------------------------------------
D------------------------------------------------------------------------------------------
A--5--7--9--8\6-----6--8--10--9\7-----7--9--11--10/8-----8--10--12--11--
E------------------------------------------------------------------------------------------

e---------------------------------------------------------------------
B---------------------------------------------------------------------
G---------------------------------------------------------------------
D--11--11--11/11/14--11-----10--10--10/10\------10----
A--------------------------------------------------------14----------(repeat)
E---------------------------------------------------------------------

c'est juste ca que j'ai :S
Journalisée
'ennuyer c'est le fait de raliser qu'on ne fait rien.
 
 
[Music] Tablatures de musiques
« Répondre #3 le: Juin 13, 2004, 08:09:37 am »
  • Supa Rank B




  • Hors ligne Hors ligne
  • Messages: 800


  • Journalisée
Huuuuuuuh !!  :o

Je comprends pas tout mais a ira pour commencer  :)

Merci  8)
   
[Music] Tablatures de musiques
« Répondre #4 le: Juin 13, 2004, 09:16:56 am »
  • Chaos Control Ruler
  • Hors ligne Hors ligne
  • Messages: 1813
  • WWW
Une possibilit n'a pas t voque encore : celle qui consiste trouver les midi raliss par les fans et d'diter ces fichiers musiques avec un logiciel ddi, comme Guitar Tab Pro ou un truc du genre..
Journalisée
 
 
[Music] Tablatures de musiques
« Répondre #5 le: Juin 13, 2004, 02:25:40 pm »
  • Rank B
  • Hors ligne Hors ligne
  • Messages: 181
C'est une solution mais mon guitar pro a de la misere en se moment. Il lague et je comprends pas pourquoi.Mais ca c'est un dtail.

Edit:
Space tu mettrais tu celle Open your hearth stp. Je la trouve pas. J'avoue j'ai juste chercher 15min. Mais bon j'ai pas juste ca a faire de ma journe y faut ben que je pratique quand meme :P

En passant la toune qui suit a pas rapport mais si quelqu'un veux l'essayer :P. Prenez en compte qu'il y a du violon, de la bass et du drum dans cette toune :P  (oui je la pratique avec des amies et oui j'ai une amie qui joue du violon pis est vraiment bonne. Et oui je vais l'enregistrer et la mettre sur le net avec plusieurs autres :P) c'tait juste une petite parenthse mais je sais pas si c'est elle ou awikatchikean qu'on va mettre sur le net. On va rajouter du gazou :D. En tout cas met que j'aille ca je vais faire un lien pour ceux qui voudrait entendre.

intro: Sim Sol La Fa# / Sim Sol La La

Sim           Sol
C'tait en quatre-vingt trois
La                 Fa#
Aprs l'show de Cinderella
Sim             Sol
On s'roulait un quatre papiers
       La         Fa#
Dans l'Duster Mario Dub

Sol               R
Quand soudain est apparue
   La             Sim
Au beau milieu de la fume
Sol           R
Une fille aux lvres charnues
    Fa#
Qui cherchait d'quoi rouler...

Sim             Sol
"C'est qui le beau bb?"
      La           Fa#
Lui d'manda subtilement Dub
   Sim             Sol
On l'a fait monter dans 'machine
   La            Fa#
Et on est partis dret su'a pine


    Sol        R
Sur la 40 vers Trois-Rivires
   La          Sim
On a roul sur un nowhere
 Sol             R
Avec la cassette de Ozzy
    Fa#
Qui jouait dans l'tapis...

Mi           La               Mi         La
Pendant qu'Mario me faisait l'signe du devil (DEVIL!)
Mi           La        Mi          La
Elle a' m'spotait en lichant son Revel
R        Sol
Ce fut le coup d'foudre
   R         Sol            Fa#
Et on s'est embrasss sur le hood!

Sim           Mi
Mais esti que t'tait belle
 La         R
Avec tes Adidas Gazelle
Sim                Mi
Tes cheveux longs a'ec des tresses
    La
Qui pendaient jusqu'aux fesses
   Sim                 Mi
On s'est aims l'temps d'un t
   La          R
En coutant du Foreigner
     Sim             Mi
Dans mon appart d'la rue Broadway
     Sol                     Mi
J'te jure que tu m'a bris l'coeur...

instr.: Sim Sol La Fa# / Sim Sol La La

   Sim             Sol
On s'est donn des gros french-kiss
La             Fa#
Tout l't sur le sofa
        Sim              Sol
En s'louant des films de Chuck Norris
La          Fa#
Sur mon vido Beta

Sol         R
On haissait Depeche Mode
La            Sim
Et la musique de tapettes
   Sol          R
On fumait des Export'A vertes
   Fa#
En coutant Vovod

   Sim                    Sol
Pendant les vacances d'la construction
   La             Fa#
Je l'ai amene camper sur la plage
Sim                 Sol
couter l'chant des Ouaouarons
     La                Fa#
Et s'faire griller les tatouages


 Sol               R
Avec ses shorts en jeans stretchs
     La             Sim
Elle avait la strap dans'poulie
      Sol            R
Moi j'me promenais ses cts
     Fa#
L'crucifix dans l'shaggy...

Mi       La       Mi              La
Le matin elle allumait tout le camping
Mi          La           Mi         La
Quand a' sortait d'la roulotte en G-string
R           Sol
Et le lac Taureau
      R          Sol          Fa#
M'apparaissait soudainement si beau...

Sim           Mi
Mais esti que t'tait belle
 La         R
Avec tes Adidas Gazelle
Sim                Mi
Tes cheveux longs a'ec des tresses
    La
Qui pendaient jusqu'aux fesses
   Sim                 Mi
On s'est aims l'temps d'un t
   La          R
En coutant du Foreigner
     Sim             Mi
Dans mon appart d'la rue Broadway
     Sol                     Mi
J'te jure que tu m'a bris l'coeur...

solo (je suis malheureusement incapable de le transcrire):
Sim Sol La Fa# / Sim Sol La Fa# / Sol R La Sim / Sol R Fa#

Sim             Sol
Mais un soir au cin-parc
        La             Fa#
J'pense que c'tait pendant E.T.
   Sim                    Sol
A' m'a fait prendre toute une dbarque
      La              Fa#
Quand a m'a dit qu'c'tait fini

     Sol            R
Elle tait enceinte d'un moron
   La                  Sim
Un gars a'ec une coupe champignon
    Sol            R
Qui jouait d'la guitare-piano
     Fa#
Dans un groupe de techno...

   Sim              Sol
Le lendemain j'ai vir une brosse
      La                 Fa#
D'ins bleachers au Stade Olympique
   Sim           Sol
Pendant le Super Motocross
La             Fa#
Avec mes chums de "bcyque"

Sol              R
Quand chu r'venu maison
     Lam              Sim
Je l'savais ben qu'c'tait over
   Sol                   R
Surtout qu'j'ai r'trouv dans l'salon
    Fa#
Son long jeu d'Foreigner

Mi                La              Mi           La
Je l'ai r'vue une fois c't'ait en quatre-vingt sept
     Mi       La             Mi         La
Elle avait la coupe d'la chanteuse de Roxette
  R             Sol
'tait rendu ben swell
      R            Sol        Fa#
A' portait un genre de suit pastel...

Sim           Mi
Mais esti que t'tait belle
 La         R
Avec tes Adidas Gazelle
Sim                Mi
Tes cheveux longs a'ec des tresses
    La
Qui pendaient jusqu'aux fesses
   Sim                 Mi
On s'est aims l'temps d'un t
   La          R
En coutant du Foreigner
     Sim             Mi
Dans mon appart d'la rue Broadway
     Sol                     Mi
J'te jure que tu m'a bris l'coeur...
Sol                    Mi
Cyndi tu m'as fait mal Heavy metal!!!

instr.: Sim Mi La R / Sim Mi La La / Sim Mi La R / Sim Mi Sol Mi Sol Mi / Sim

Je sais est vraiment pas rapport la musique surtout les paroles :P mais qu'est ce que vous voulez c'est l'fun des chansons pas rapport :P.
Journalisée
'ennuyer c'est le fait de raliser qu'on ne fait rien.
 
 
[Music] Tablatures de musiques
« Répondre #6 le: Juin 16, 2004, 08:01:11 pm »
  • Rank B
  • Hors ligne Hors ligne
  • Messages: 181
J'ai dcid de changer le nom de mon topic et maintenant je vais vous donner des sites pour vous apprentit musicien ou tout simplement curieux.
http://www.mxtabs.net/guitartabs.php
pour les notes
http://www.chordfind.com/
Des chansons des cowboys fringants(violon, bass etc.)
http://ratonlaveur.gq.nu/pages/cf/index.htm
Des chansons qubecoise, francaise etc.
http://membres.lycos.fr/partitions101/
Des musiques de jeu
http://www.kontek.net/vgjam/
Ceux de offspring
http://gregpunk.free.fr/index.php?Categorie=Tablatures
et pour vous aider a lire les partitions
A=LA
B=SI
C=DO
D=R
E=MI
F=FA
G=SOL
Comment faire quelque note pour quelques chansons (appuyer bien fort)
avec le type de guitare. Je vous conseille pas mon pays a la guitare lectrique ca fait vraiment bizzarre. J'en ai d'autre que j'ai fait comme ca mais je les trouve pas alors ca sera pour une autre fois. ( J'ai juste mis comment faire les accords pour plus de dtail le site du raton laveur :P
(j'aime le nom)

mon pays                                            
Am=Lam:0-0-2-2-1-0
G=Sol:2-3-0-0-0-3
Em=Mim:0-2-2-0-0-0
C=Do:0-3-2-0-1-1
Dm=Rm:X-X-0-2-3-1
E=Mi:0-2-2-1-0-0

Voyou
D=R:X-X-0-2-3-2
G=Sol:2-3-0-0-0-3
A=La:0-0-2-2-2-0
Bm=Sim:2-4-4-2-3-2
D5=R5:X-X-0-1-3-2
F#m=Fa#m:2-4-4-2-2-2

Awikatchikan
Bm=Sim:2-4-4-2-3-2
A=La:0-0-2-2-2-0
E=Mi:0-2-2-1-0-0
D=R:X-X-0-2-3-2

lectrique

Heavy Metal
Bm=Sim:2-4-4-2-3-2
G=Sol:2-3-0-0-0-3
A=La:0-0-2-2-2-0
F#=Fa#:X-X-4-3-1-2
D=R:X-X-0-2-3-2
E=Mi:0-2-2-1-0-0
Journalisée
'ennuyer c'est le fait de raliser qu'on ne fait rien.
 
 
[Music] Tablatures de musiques
« Répondre #7 le: Juin 17, 2004, 08:57:18 pm »
  • Supa Rank C
  • Hors ligne Hors ligne
  • Messages: 718
  • WWW
Ma c pas possible une fan des cowboys fringants!!! On va bien s'entendre ^^

Sinon pour ceux qui dbute la guitare voila 3 sites qui pourrait vous aider

http://www.mysongbook.com
l'incoutournable et le plus complet pour les tablature en .gp3 ou 4 (ya meme des tablature de jeux : mais pas sonic :cry: )pour ceux qui ont le logiciel guitar pro

http://www.guitaredebutant.com
pour apprendre la guitare en 1 semaine (jur sa marche) et cabrel (sa dcourage)

http://www.magic-tab.com
encore un pas mal (on peut ecouter la music de la tab en meme temps )  mais le prob c'est que la moiti des tablatures sont payantes
Journalisée
img]http://juqdmxlk37.free.fr/FTP/PSo/forum/banniere/Newban/banniere.php[/img]
 
 
[Music] Tablatures de musiques
« Répondre #8 le: Juin 17, 2004, 10:51:09 pm »
  • Rank B
  • Hors ligne Hors ligne
  • Messages: 181
Ils sont bien tes sites et je crois que si tu aimes les cowboys fringants on risque vraiment de bien s'entendre!!! Non on risque pas on va bien s'entendre!
Journalisée
'ennuyer c'est le fait de raliser qu'on ne fait rien.
 
 
[Music] Tablatures de musiques
« Répondre #9 le: Juin 18, 2004, 01:33:58 am »
  • Rank G




  • Hors ligne Hors ligne
  • Messages: 11


  • Journalisée
Vous voulez connaitre un fan des Cowboys? Et bien en voici un: Moi.
Mais je veux bien croire que ya des fans de se merveilleux groupe partout, mais nous sommes sur un forum de Sonic et non des CF.
   
[Music] Tablatures de musiques
« Répondre #10 le: Juin 18, 2004, 05:44:02 am »
  • Supa Rank C
  • Hors ligne Hors ligne
  • Messages: 718
  • WWW
Pas trop grave , tant qu'on donne des infos sur la guitare et des sites de tablatures (Mack_ack renomm le topic)

Bin qui sait : si on arrive a rassembl suffisamment de personne (qui save jou d'un instrument) on va pouvoir crer un groupe et se faire un petit awikatchikan ou un Impala blues ^^ ... apres 4-5000 whiskys
(lol reve : hymne de PSo awikatchikaen.... -non c pire que du off-topic-)


http://www.patleck.com/lyrics/
Sinon pas trop de rapport avec la guitare mais pas mal pour comprendre ce que dise les diffrent groupes (sa aide toujours)

http://www.guitar-pro.com/eng/Downloads.php
et pis un ptit lien que j'avais oubli  hier pour ceux qui on pas guitare pro

a+
Journalisée
img]http://juqdmxlk37.free.fr/FTP/PSo/forum/banniere/Newban/banniere.php[/img]
 
 
[Music] Tablatures de musiques
« Répondre #11 le: Juin 18, 2004, 10:53:49 pm »
  • Rank B
  • Hors ligne Hors ligne
  • Messages: 181
Un hymne pour Pso, lol!!!!! Un groupe, je fais dja partie d'un groupe... Un groupe de 40 personnes me semble que ca serait drole par exemple. :D . La cacophonie que ca ferait :P lool. Hum un awikatchikaen facon sonic hum. Ma compos des paroles facon chanson de sonic pour awikatchikaen juste pour rire. Ma peut etre aussi l'enregistrer et le mettre sur le net. Hum faudrait juste que je convainque la violoniste. Je vais essayer de voir ca. Tant qu'a y etre je vais aussi composer des solos juste entre J'ai bu, j'ai mang comme un fou Ch'pu capable de me t'nir debout J'pense que ma vie est termine et Mais avant de mourir, Mes dernires paroles furent : Wantchikatan tchikatan tchikatan tan-tan Tchikatan tchikatan tchikatan tan-tan Tchikatan tchikatan tchikatan tan-tan. Une ide pas pire me semble...
Journalisée
'ennuyer c'est le fait de raliser qu'on ne fait rien.
 
 
[Music] Tablatures de musiques
« Répondre #12 le: Juin 04, 2005, 09:47:24 pm »
  • Supa Rank C
  • Hors ligne Hors ligne
  • Messages: 718
  • WWW
M'tant remis depuis peu la guitare lectrique, je suis en qute de la tablature de Run Through the Speed Highway (musique de la premire partie de Speed Highway dans Sonic Adventure), ou au pire d'un Midi de la musique, chose que j'ai pas encore russi trouver :? .
Journalisée
img]http://juqdmxlk37.free.fr/FTP/PSo/forum/banniere/Newban/banniere.php[/img]
 
 
[Music] Tablatures de musiques
« Répondre #13 le: Mai 12, 2006, 10:07:00 pm »
  • Rank F
  • Hors ligne Hors ligne
  • Messages: 66
http://www.sonic-online.net/articles.php?action=view&id=16&page=1


C'est quand mme bon!  Il y en a 3:

Green Hill

Icecap Act 1 (sonic 3)

Sky Deck (:D)

J'en ai un autre avec des tonnes de partitions de piano mais je l'ai pas sous la main... Je le laiserai trs bientt!


 :D
Journalisée
an't hold on much longer
But I will never let go
I know it's a one way track
Tell me now how long this'll
I'm not gonna think this way
Nor will I count on others
Close my eyes and feel it burn
Now I see what I've gotta do
Open your heart it's gonna be alright!!

Harry
 
 
[Music] Tablatures de musiques
« Répondre #14 le: Mai 13, 2006, 04:13:55 pm »
  • Touriste
  • Hors ligne Hors ligne
  • Messages: 8


  • Journalisée
Merci tous le monde pour ses tablatures car moi aussi ce topic m'intresse car je pratique galement de la guitare lectrique ^^
   
Pages: [1]